  0
SECTION
  2
HEADER
  9
$ACADVER
  1
AC1009
  9
$INSBASE
 10
0.0
 20
0.0
 30
0.0
  9
$EXTMIN
 10
-300.0
 20
-300.0
 30
-120.0
  9
$EXTMAX
 10
300.0
 20
300.0
 30
60.0
  9
$LIMMIN
 10
-1500.0
 20
-1500.0
  9
$LIMMAX
 10
1500.0
 20
1500.0
  9
$ORTHOMODE
 70
     0
  9
$REGENMODE
 70
     1
  9
$FILLMODE
 70
     1
  9
$QTEXTMODE
 70
     0
  9
$MIRRTEXT
 70
     1
  9
$DRAGMODE
 70
     2
  9
$LTSCALE
 40
1.0
  9
$OSMODE
 70
    32
  9
$ATTMODE
 70
     1
  9
$TEXTSIZE
 40
6.895305
  9
$TRACEWID
 40
0.05
  9
$TEXTSTYLE
  7
STANDARD
  9
$CLAYER
  8
ORIENTATION
  9
$CELTYPE
  6
BYLAYER
  9
$CECOLOR
 62
   256
  9
$DIMSCALE
 40
1.0
  9
$DIMASZ
 40
0.18
  9
$DIMEXO
 40
0.0625
  9
$DIMDLI
 40
0.38
  9
$DIMRND
 40
0.0
  9
$DIMDLE
 40
0.0
  9
$DIMEXE
 40
0.18
  9
$DIMTP
 40
0.0
  9
$DIMTM
 40
0.0
  9
$DIMTXT
 40
0.18
  9
$DIMCEN
 40
0.09
  9
$DIMTSZ
 40
0.0
  9
$DIMTOL
 70
     0
  9
$DIMLIM
 70
     0
  9
$DIMTIH
 70
     1
  9
$DIMTOH
 70
     1
  9
$DIMSE1
 70
     0
  9
$DIMSE2
 70
     0
  9
$DIMTAD
 70
     0
  9
$DIMZIN
 70
     0
  9
$DIMBLK
  1

  9
$DIMASO
 70
     1
  9
$DIMSHO
 70
     1
  9
$DIMPOST
  1

  9
$DIMAPOST
  1

  9
$DIMALT
 70
     0
  9
$DIMALTD
 70
     2
  9
$DIMALTF
 40
25.4
  9
$DIMLFAC
 40
1.0
  9
$DIMTOFL
 70
     0
  9
$DIMTVP
 40
0.0
  9
$DIMTIX
 70
     0
  9
$DIMSOXD
 70
     0
  9
$DIMSAH
 70
     0
  9
$DIMBLK1
  1

  9
$DIMBLK2
  1

  9
$DIMSTYLE
  2
*UNNAMED
  9
$DIMCLRD
 70
     0
  9
$DIMCLRE
 70
     0
  9
$DIMCLRT
 70
     0
  9
$DIMTFAC
 40
1.0
  9
$DIMGAP
 40
0.09
  9
$LUNITS
 70
     2
  9
$LUPREC
 70
     4
  9
$SKETCHINC
 40
0.1
  9
$FILLETRAD
 40
0.0
  9
$AUNITS
 70
     0
  9
$AUPREC
 70
     0
  9
$MENU
  1
acad
  9
$ELEVATION
 40
0.0
  9
$PELEVATION
 40
0.0
  9
$THICKNESS
 40
0.0
  9
$LIMCHECK
 70
     0
  9
$BLIPMODE
 70
     1
  9
$CHAMFERA
 40
0.0
  9
$CHAMFERB
 40
0.0
  9
$SKPOLY
 70
     0
  9
$TDCREATE
 40
2449498.595098611
  9
$TDUPDATE
 40
2449498.595098611
  9
$TDINDWG
 40
0.0000000000
  9
$TDUSRTIMER
 40
0.0000000000
  9
$USRTIMER
 70
     1
  9
$ANGBASE
 50
0.0
  9
$ANGDIR
 70
     0
  9
$PDMODE
 70
     0
  9
$PDSIZE
 40
0.0
  9
$PLINEWID
 40
0.0
  9
$COORDS
 70
     1
  9
$SPLFRAME
 70
     0
  9
$SPLINETYPE
 70
     6
  9
$SPLINESEGS
 70
     8
  9
$ATTDIA
 70
     0
  9
$ATTREQ
 70
     1
  9
$HANDLING
 70
     0
  9
$HANDSEED
  5
0
  9
$SURFTAB1
 70
     6
  9
$SURFTAB2
 70
     6
  9
$SURFTYPE
 70
     6
  9
$SURFU
 70
     6
  9
$SURFV
 70
     6
  9
$UCSNAME
  2

  9
$UCSORG
 10
-20.0
 20
-20.0
 30
0.0
  9
$UCSXDIR
 10
1.0
 20
0.0
 30
0.0
  9
$UCSYDIR
 10
0.0
 20
1.0
 30
0.0
  9
$PUCSNAME
  2

  9
$PUCSORG
 10
0.0
 20
0.0
 30
0.0
  9
$PUCSXDIR
 10
1.0
 20
0.0
 30
0.0
  9
$PUCSYDIR
 10
0.0
 20
1.0
 30
0.0
  9
$USERI1
 70
     0
  9
$USERI2
 70
     0
  9
$USERI3
 70
     0
  9
$USERI4
 70
     0
  9
$USERI5
 70
     0
  9
$USERR1
 40
0.0
  9
$USERR2
 40
0.0
  9
$USERR3
 40
0.0
  9
$USERR4
 40
0.0
  9
$USERR5
 40
0.0
  9
$WORLDVIEW
 70
     1
  9
$SHADEDGE
 70
     3
  9
$SHADEDIF
 70
    70
  9
$TILEMODE
 70
     1
  9
$MAXACTVP
 70
    16
  9
$PINSBASE
 10
0.0
 20
0.0
 30
0.0
  9
$PLIMCHECK
 70
     0
  9
$PEXTMIN
 10
1.000000E+20
 20
1.000000E+20
 30
1.000000E+20
  9
$PEXTMAX
 10
-1.000000E+20
 20
-1.000000E+20
 30
-1.000000E+20
  9
$PLIMMIN
 10
0.0
 20
0.0
  9
$PLIMMAX
 10
12.0
 20
9.0
  9
$UNITMODE
 70
     0
  9
$VISRETAIN
 70
     0
  9
$PLINEGEN
 70
     0
  9
$PSLTSCALE
 70
     1
  9
$TREEDEPTH
 70
  3020
  9
$DWGCODEPAGE
  3
ascii
  0
ENDSEC
  0
SECTION
  2
TABLES
  0
TABLE
  2
VPORT
 70
    12
  0
VPORT
  2
*ACTIVE
 70
     0
 10
0.0
 20
0.0
 11
0.5
 21
0.5
 12
0.0
 22
0.0
 13
0.0
 23
0.0
 14
50.0
 24
50.0
 15
50.0
 25
50.0
 16
0.212659
 26
0.056982
 36
0.472137
 17
182.86225
 27
86.079975
 37
195.749577
 40
3000.0
 41
1.366512
 42
10.060057
 43
-10.0
 44
-10.0
 50
0.0
 51
0.0
 71
     1
 72
   100
 73
     1
 74
     3
 75
     1
 76
     1
 77
     0
 78
     0
  0
VPORT
  2
*ACTIVE
 70
     0
 10
0.0
 20
0.5
 11
0.5
 21
1.0
 12
1.408255
 22
8.053196
 13
0.0
 23
0.0
 14
20.0
 24
20.0
 15
50.0
 25
50.0
 16
1.40858
 26
1.649425
 36
3.430968
 17
0.0
 27
0.0
 37
0.0
 40
656.759432
 41
1.362585
 42
50.0
 43
0.0
 44
0.0
 50
0.0
 51
0.0
 71
     0
 72
   100
 73
     1
 74
     3
 75
     0
 76
     1
 77
     0
 78
     0
  0
VPORT
  2
*ACTIVE
 70
     0
 10
0.5
 20
0.0
 11
1.0
 21
0.5
 12
117.402071
 22
-45.0
 13
0.0
 23
0.0
 14
50.0
 24
50.0
 15
50.0
 25
50.0
 16
0.0
 26
0.0
 36
1.0
 17
0.0
 27
0.0
 37
0.0
 40
1150.0
 41
1.369395
 42
50.0
 43
0.0
 44
0.0
 50
0.0
 51
0.0
 71
     0
 72
   100
 73
     1
 74
     1
 75
     1
 76
     0
 77
     0
 78
     0
  0
VPORT
  2
*ACTIVE
 70
     0
 10
0.5
 20
0.5
 11
1.0
 21
1.0
 12
7.78375
 22
25.10737
 13
0.0
 23
0.0
 14
50.0
 24
50.0
 15
100.0
 25
100.0
 16
1.2
 26
1.1
 36
1.0
 17
0.0
 27
0.0
 37
0.0
 40
101.132505
 41
1.36546
 42
50.0
 43
0.0
 44
0.0
 50
0.0
 51
0.0
 71
     0
 72
   100
 73
     1
 74
     3
 75
     0
 76
     0
 77
     0
 78
     0
  0
ENDTAB
  0
TABLE
  2
LTYPE
 70
     1
  0
LTYPE
  2
CONTINUOUS
 70
    64
  3
Solid line
 72
    65
 73
     0
 40
0.0
  0
ENDTAB
  0
TABLE
  2
LAYER
 70
    10
  0
LAYER
  2
0
 70
     0
 62
     7
  6
CONTINUOUS
  0
LAYER
  2
WIRE
 70
    64
 62
    -1
  6
CONTINUOUS
  0
LAYER
  2
CONSTANT
 70
     0
 62
     7
  6
CONTINUOUS
  0
LAYER
  2
SHADED
 70
     0
 62
     2
  6
CONTINUOUS
  0
LAYER
  2
SINE
 70
     0
 62
     3
  6
CONTINUOUS
  0
LAYER
  2
BOTHSIDES
 70
     0
 62
     5
  6
CONTINUOUS
  0
LAYER
  2
BOTHSHADE
 70
     0
 62
     4
  6
CONTINUOUS
  0
LAYER
  2
DOUBLESIDED
 70
     0
 62
    10
  6
CONTINUOUS
  0
LAYER
  2
DOUBLESHADED
 70
     0
 62
    15
  6
CONTINUOUS
  0
LAYER
  2
ORIENTATION
 70
    64
 62
     5
  6
CONTINUOUS
  0
ENDTAB
  0
TABLE
  2
STYLE
 70
     1
  0
STYLE
  2
STANDARD
 70
    64
 40
0.0
 41
1.0
 50
0.0
 71
     0
 42
6.895305
  3
txt
  4

  0
ENDTAB
  0
TABLE
  2
VIEW
 70
     0
  0
ENDTAB
  0
TABLE
  2
UCS
 70
     0
  0
ENDTAB
  0
TABLE
  2
APPID
 70
     1
  0
APPID
  2
ACAD
 70
    64
  0
ENDTAB
  0
TABLE
  2
DIMSTYLE
 70
     0
  0
ENDTAB
  0
ENDSEC
  0
SECTION
  2
BLOCKS
  0
ENDSEC
  0
SECTION
  2
ENTITIES
  0
LINE
  8
ORIENTATION
 39
-40.0
 10
-20.0
 20
-20.0
 30
40.0
 11
-20.0
 21
20.0
 31
40.0
  0
LINE
  8
ORIENTATION
 39
-40.0
 10
-20.0
 20
20.0
 30
40.0
 11
20.0
 21
20.0
 31
40.0
  0
LINE
  8
ORIENTATION
 39
-40.0
 10
20.0
 20
20.0
 30
40.0
 11
20.0
 21
-20.0
 31
40.0
  0
LINE
  8
ORIENTATION
 39
-40.0
 10
20.0
 20
-20.0
 30
40.0
 11
-20.0
 21
-20.0
 31
40.0
  0
TEXT
  8
ORIENTATION
 10
-19.827532
 20
27.140688
 30
0.0
 40
6.895305
  1
+Y
  0
TEXT
  8
ORIENTATION
 10
25.892162
 20
-19.795384
 30
0.0
 40
6.895305
  1
+X
  0
TEXT
  8
ORIENTATION
 10
-23.499705
 20
46.267567
 30
20.0
 40
6.895305
  1
+Z
210
0.0
220
-1.0
230
0.0
  0
TEXT
  8
ORIENTATION
 10
-33.024296
 20
12.022448
 30
-20.0
 40
6.895305
  1
(0,0,0)
210
1.0
220
0.0
230
0.0
  0
LINE
  8
WIRE
 10
-100.0
 20
-100.0
 30
0.0
 11
100.0
 21
-100.0
 31
0.0
  0
LINE
  8
WIRE
 10
100.0
 20
-100.0
 30
0.0
 11
100.0
 21
100.0
 31
0.0
  0
LINE
  8
WIRE
 10
100.0
 20
100.0
 30
0.0
 11
-100.0
 21
100.0
 31
0.0
  0
LINE
  8
WIRE
 10
-100.0
 20
100.0
 30
0.0
 11
-100.0
 21
-100.0
 31
0.0
  0
LINE
  8
WIRE
 10
100.0
 20
-300.0
 30
-120.0
 11
100.0
 21
-250.0
 31
-120.0
  0
LINE
  8
WIRE
 10
100.0
 20
-250.0
 30
-120.0
 11
-100.0
 21
-250.0
 31
-120.0
  0
LINE
  8
WIRE
 10
-100.0
 20
-250.0
 30
-120.0
 11
-100.0
 21
-300.0
 31
-120.0
  0
LINE
  8
WIRE
 10
300.0
 20
-100.0
 30
-120.0
 11
250.0
 21
-100.0
 31
-120.0
  0
LINE
  8
WIRE
 10
250.0
 20
-100.0
 30
-120.0
 11
250.0
 21
100.0
 31
-120.0
  0
LINE
  8
WIRE
 10
250.0
 20
100.0
 30
-120.0
 11
300.0
 21
100.0
 31
-120.0
  0
LINE
  8
WIRE
 10
100.0
 20
300.0
 30
-120.0
 11
100.0
 21
250.0
 31
-120.0
  0
LINE
  8
WIRE
 10
100.0
 20
250.0
 30
-120.0
 11
-100.0
 21
250.0
 31
-120.0
  0
LINE
  8
WIRE
 10
-100.0
 20
250.0
 30
-120.0
 11
-100.0
 21
300.0
 31
-120.0
  0
LINE
  8
WIRE
 10
-300.0
 20
100.0
 30
-120.0
 11
-250.0
 21
100.0
 31
-120.0
  0
LINE
  8
WIRE
 10
-250.0
 20
100.0
 30
-120.0
 11
-250.0
 21
-100.0
 31
-120.0
  0
LINE
  8
WIRE
 10
-250.0
 20
-100.0
 30
-120.0
 11
-300.0
 21
-100.0
 31
-120.0
  0
LINE
  8
WIRE
 10
100.0
 20
-100.0
 30
0.0
 11
100.0
 21
-150.0
 31
0.0
  0
LINE
  8
WIRE
 10
100.0
 20
-150.0
 30
0.0
 11
150.0
 21
-150.0
 31
0.0
  0
LINE
  8
WIRE
 10
150.0
 20
-150.0
 30
0.0
 11
150.0
 21
-100.0
 31
0.0
  0
LINE
  8
WIRE
 10
150.0
 20
-100.0
 30
0.0
 11
100.0
 21
-100.0
 31
0.0
  0
LINE
  8
WIRE
 10
100.0
 20
100.0
 30
0.0
 11
100.0
 21
150.0
 31
0.0
  0
LINE
  8
WIRE
 10
150.0
 20
100.0
 30
0.0
 11
100.0
 21
100.0
 31
0.0
  0
LINE
  8
WIRE
 10
100.0
 20
150.0
 30
0.0
 11
150.0
 21
150.0
 31
0.0
  0
LINE
  8
WIRE
 10
150.0
 20
150.0
 30
0.0
 11
150.0
 21
100.0
 31
0.0
  0
LINE
  8
WIRE
 10
-150.0
 20
100.0
 30
0.0
 11
-100.0
 21
100.0
 31
0.0
  0
LINE
  8
WIRE
 10
-100.0
 20
150.0
 30
0.0
 11
-150.0
 21
150.0
 31
0.0
  0
LINE
  8
WIRE
 10
-150.0
 20
150.0
 30
0.0
 11
-150.0
 21
100.0
 31
0.0
  0
LINE
  8
WIRE
 10
-100.0
 20
100.0
 30
0.0
 11
-100.0
 21
150.0
 31
0.0
  0
LINE
  8
WIRE
 10
-150.0
 20
-100.0
 30
0.0
 11
-100.0
 21
-100.0
 31
0.0
  0
LINE
  8
WIRE
 10
-150.0
 20
-150.0
 30
0.0
 11
-150.0
 21
-100.0
 31
0.0
  0
LINE
  8
WIRE
 10
-100.0
 20
-150.0
 30
0.0
 11
-150.0
 21
-150.0
 31
0.0
  0
LINE
  8
WIRE
 10
-100.0
 20
-100.0
 30
0.0
 11
-100.0
 21
-150.0
 31
0.0
  0
LINE
  8
WIRE
 10
300.0
 20
300.0
 30
-120.0
 11
-300.0
 21
300.0
 31
-120.0
  0
LINE
  8
WIRE
 10
-300.0
 20
300.0
 30
-120.0
 11
-300.0
 21
-300.0
 31
-120.0
  0
LINE
  8
WIRE
 10
-300.0
 20
-300.0
 30
-120.0
 11
300.0
 21
-300.0
 31
-120.0
  0
LINE
  8
WIRE
 10
300.0
 20
-300.0
 30
-120.0
 11
300.0
 21
300.0
 31
-120.0
  0
LINE
  8
WIRE
 10
35.0
 20
35.0
 30
40.0
 11
-35.0
 21
35.0
 31
40.0
  0
LINE
  8
WIRE
 10
-35.0
 20
35.0
 30
40.0
 11
-35.0
 21
-35.0
 31
40.0
  0
LINE
  8
WIRE
 10
-35.0
 20
-35.0
 30
40.0
 11
35.0
 21
-35.0
 31
40.0
  0
LINE
  8
WIRE
 10
35.0
 20
-35.0
 30
40.0
 11
35.0
 21
35.0
 31
40.0
  0
3DFACE
  8
SHADED
 10
150.0
 20
150.0
 30
0.0
 11
300.0
 21
300.0
 31
-120.0
 12
100.0
 22
300.0
 32
-120.0
 13
100.0
 23
150.0
 33
0.0
  0
3DFACE
  8
SHADED
 10
150.0
 20
150.0
 30
0.0
 11
100.0
 21
150.0
 31
0.0
 12
100.0
 22
100.0
 32
0.0
 13
150.0
 23
100.0
 33
0.0
  0
3DFACE
  8
SHADED
 10
100.0
 20
300.0
 30
-120.0
 11
100.0
 21
250.0
 31
-120.0
 12
100.0
 22
100.0
 32
0.0
 13
100.0
 23
150.0
 33
0.0
  0
3DFACE
  8
SHADED
 10
-100.0
 20
300.0
 30
-120.0
 11
-100.0
 21
150.0
 31
0.0
 12
-100.0
 22
100.0
 32
0.0
 13
-100.0
 23
250.0
 33
-120.0
  0
3DFACE
  8
SHADED
 10
-100.0
 20
300.0
 30
-120.0
 11
-300.0
 21
300.0
 31
-120.0
 12
-150.0
 22
150.0
 32
0.0
 13
-100.0
 23
150.0
 33
0.0
  0
3DFACE
  8
SHADED
 10
100.0
 20
100.0
 30
0.0
 11
-100.0
 21
100.0
 31
0.0
 12
-35.0
 22
35.0
 32
40.0
 13
35.0
 23
35.0
 33
40.0
  0
3DFACE
  8
SHADED
 10
100.0
 20
250.0
 30
-120.0
 11
-100.0
 21
250.0
 31
-120.0
 12
-100.0
 22
100.0
 32
0.0
 13
100.0
 23
100.0
 33
0.0
  0
3DFACE
  8
SHADED
 10
-250.0
 20
100.0
 30
-120.0
 11
-250.0
 21
-100.0
 31
-120.0
 12
-100.0
 22
-100.0
 32
0.0
 13
-100.0
 23
100.0
 33
0.0
  0
3DFACE
  8
SHADED
 10
-300.0
 20
-100.0
 30
-120.0
 11
-300.0
 21
-300.0
 31
-120.0
 12
-150.0
 22
-150.0
 32
0.0
 13
-150.0
 23
-100.0
 33
0.0
  0
3DFACE
  8
SHADED
 10
-300.0
 20
-100.0
 30
-120.0
 11
-150.0
 21
-100.0
 31
0.0
 12
-100.0
 22
-100.0
 32
0.0
 13
-250.0
 23
-100.0
 33
-120.0
  0
3DFACE
  8
SHADED
 10
-300.0
 20
100.0
 30
-120.0
 11
-250.0
 21
100.0
 31
-120.0
 12
-100.0
 22
100.0
 32
0.0
 13
-150.0
 23
100.0
 33
0.0
  0
3DFACE
  8
SHADED
 10
-150.0
 20
150.0
 30
0.0
 11
-300.0
 21
300.0
 31
-120.0
 12
-300.0
 22
100.0
 32
-120.0
 13
-150.0
 23
100.0
 33
0.0
  0
3DFACE
  8
SHADED
 10
-100.0
 20
100.0
 30
0.0
 11
-100.0
 21
-100.0
 31
0.0
 12
-35.0
 22
-35.0
 32
40.0
 13
-35.0
 23
35.0
 33
40.0
  0
3DFACE
  8
SHADED
 10
-150.0
 20
150.0
 30
0.0
 11
-150.0
 21
100.0
 31
0.0
 12
-100.0
 22
100.0
 32
0.0
 13
-100.0
 23
150.0
 33
0.0
  0
3DFACE
  8
SHADED
 10
-100.0
 20
-250.0
 30
-120.0
 11
100.0
 21
-250.0
 31
-120.0
 12
100.0
 22
-100.0
 32
0.0
 13
-100.0
 23
-100.0
 33
0.0
  0
3DFACE
  8
SHADED
 10
100.0
 20
-300.0
 30
-120.0
 11
300.0
 21
-300.0
 31
-120.0
 12
150.0
 22
-150.0
 32
0.0
 13
100.0
 23
-150.0
 33
0.0
  0
3DFACE
  8
SHADED
 10
100.0
 20
-300.0
 30
-120.0
 11
100.0
 21
-150.0
 31
0.0
 12
100.0
 22
-100.0
 32
0.0
 13
100.0
 23
-250.0
 33
-120.0
  0
3DFACE
  8
SHADED
 10
-100.0
 20
-300.0
 30
-120.0
 11
-100.0
 21
-250.0
 31
-120.0
 12
-100.0
 22
-100.0
 32
0.0
 13
-100.0
 23
-150.0
 33
0.0
  0
3DFACE
  8
SHADED
 10
-150.0
 20
-150.0
 30
0.0
 11
-300.0
 21
-300.0
 31
-120.0
 12
-100.0
 22
-300.0
 32
-120.0
 13
-100.0
 23
-150.0
 33
0.0
  0
3DFACE
  8
SHADED
 10
-100.0
 20
-100.0
 30
0.0
 11
100.0
 21
-100.0
 31
0.0
 12
35.0
 22
-35.0
 32
40.0
 13
-35.0
 23
-35.0
 33
40.0
  0
3DFACE
  8
SHADED
 10
-150.0
 20
-150.0
 30
0.0
 11
-100.0
 21
-150.0
 31
0.0
 12
-100.0
 22
-100.0
 32
0.0
 13
-150.0
 23
-100.0
 33
0.0
  0
3DFACE
  8
SHADED
 10
250.0
 20
-100.0
 30
-120.0
 11
250.0
 21
100.0
 31
-120.0
 12
100.0
 22
100.0
 32
0.0
 13
100.0
 23
-100.0
 33
0.0
  0
3DFACE
  8
SHADED
 10
300.0
 20
100.0
 30
-120.0
 11
300.0
 21
300.0
 31
-120.0
 12
150.0
 22
150.0
 32
0.0
 13
150.0
 23
100.0
 33
0.0
  0
3DFACE
  8
SHADED
 10
300.0
 20
100.0
 30
-120.0
 11
150.0
 21
100.0
 31
0.0
 12
100.0
 22
100.0
 32
0.0
 13
250.0
 23
100.0
 33
-120.0
  0
3DFACE
  8
SHADED
 10
300.0
 20
-100.0
 30
-120.0
 11
250.0
 21
-100.0
 31
-120.0
 12
100.0
 22
-100.0
 32
0.0
 13
150.0
 23
-100.0
 33
0.0
  0
3DFACE
  8
SHADED
 10
150.0
 20
-150.0
 30
0.0
 11
300.0
 21
-300.0
 31
-120.0
 12
300.0
 22
-100.0
 32
-120.0
 13
150.0
 23
-100.0
 33
0.0
  0
3DFACE
  8
SHADED
 10
100.0
 20
-100.0
 30
0.0
 11
100.0
 21
100.0
 31
0.0
 12
35.0
 22
35.0
 32
40.0
 13
35.0
 23
-35.0
 33
40.0
  0
3DFACE
  8
SHADED
 10
150.0
 20
-150.0
 30
0.0
 11
150.0
 21
-100.0
 31
0.0
 12
100.0
 22
-100.0
 32
0.0
 13
100.0
 23
-150.0
 33
0.0
  0
3DFACE
  8
SHADED
 10
35.0
 20
35.0
 30
40.0
 11
-35.0
 21
35.0
 31
40.0
 12
-35.0
 22
-35.0
 32
40.0
 13
35.0
 23
-35.0
 33
40.0
  0
ENDSEC
  0
EOF
